ISO-10303-21;
HEADER;
FILE_DESCRIPTION (( 'STEP AP203' ),
    '1' );
FILE_NAME ('BK7-LPDBSP-25.4-605.STEP',
    '2020-12-22T02:18:57',
    ( '' ),
    ( '' ),
    'SwSTEP 2.0',
    'SolidWorks 2020',
    '' );
FILE_SCHEMA (( 'CONFIG_CONTROL_DESIGN' ));
ENDSEC;

DATA;
#1 = APPROVAL_STATUS ( 'not_yet_approved' ) ;
#2 = DATE_AND_TIME ( #156, #75 ) ;
#3 = APPROVAL_ROLE ( '' ) ;
#4 = CC_DESIGN_DATE_AND_TIME_ASSIGNMENT ( #2, #66, ( #55 ) ) ;
#5 = APPROVAL_DATE_TIME ( #24, #19 ) ;
#6 = CC_DESIGN_PERSON_AND_ORGANIZATION_ASSIGNMENT ( #50, #53, ( #55 ) ) ;
#7 = SECURITY_CLASSIFICATION ( '', '', #64 ) ;
#8 = AXIS2_PLACEMENT_3D ( 'NONE', #48, #59, #12 ) ;
#9 = APPLICATION_CONTEXT ( 'configuration controlled 3d designs of mechanical parts and assemblies' ) ;
#10 = MANIFOLD_SOLID_BREP ( 'Ðý×', #11 ) ;
#11 = CLOSED_SHELL ( 'NONE', ( #102, #13, #159, #115 ) ) ;
#12 = DIRECTION ( 'NONE',  ( 0.000000000000000000, 0.000000000000000000, 1.000000000000000000 ) ) ;
#13 = ADVANCED_FACE ( 'NONE', ( #173 ), #101, .T. ) ;
#14 = VERTEX_POINT ( 'NONE', #88 ) ;
#15 = CC_DESIGN_APPROVAL ( #76, ( #109 ) ) ;
#16 = ORIENTED_EDGE ( 'NONE', *, *, #126, .F. ) ;
#17 = PLANE ( 'NONE',  #137 ) ;
#18 = ORIENTED_EDGE ( 'NONE', *, *, #80, .T. ) ;
#19 = APPROVAL ( #149, 'UNSPECIFIED' ) ;
#20 = PERSON_AND_ORGANIZATION_ROLE ( 'design_supplier' ) ;
#21 = MECHANICAL_CONTEXT ( 'NONE', #145, 'mechanical' ) ;
#22 = AXIS2_PLACEMENT_3D ( 'NONE', #35, #147, #169 ) ;
#23 = PERSON_AND_ORGANIZATION_ROLE ( 'creator' ) ;
#24 = DATE_AND_TIME ( #148, #100 ) ;
#25 = CALENDAR_DATE ( 2020, 22, 12 ) ;
#26 = EDGE_CURVE ( 'NONE', #142, #33, #96, .T. ) ;
#27 = PLANE ( 'NONE',  #118 ) ;
#28 = CIRCLE ( 'NONE', #138, 12.69999999999999929 ) ;
#29 = PRODUCT_DEFINITION_SHAPE ( 'NONE', 'NONE',  #55 ) ;
#30 = EDGE_LOOP ( 'NONE', ( #16, #130 ) ) ;
#31 = CARTESIAN_POINT ( 'NONE',  ( 0.000000000000000000, 0.000000000000000000, 0.000000000000000000 ) ) ;
#32 = ORIENTED_EDGE ( 'NONE', *, *, #69, .T. ) ;
#33 = VERTEX_POINT ( 'NONE', #61 ) ;
#34 = DIRECTION ( 'NONE',  ( -1.000000000000000000, -0.000000000000000000, -0.000000000000000000 ) ) ;
#35 = CARTESIAN_POINT ( 'NONE',  ( 0.000000000000000000, 0.000000000000000000, 0.000000000000000000 ) ) ;
#36 = APPROVAL_DATE_TIME ( #108, #76 ) ;
#37 = APPROVAL_PERSON_ORGANIZATION ( #83, #85, #111 ) ;
#38 = COORDINATED_UNIVERSAL_TIME_OFFSET ( 8, 0, .AHEAD. ) ;
#39 =( NAMED_UNIT ( * ) SI_UNIT ( $, .STERADIAN. ) SOLID_ANGLE_UNIT ( ) );
#40 = PERSON_AND_ORGANIZATION ( #86, #81 ) ;
#41 = CC_DESIGN_APPROVAL ( #85, ( #7 ) ) ;
#42 = CC_DESIGN_PERSON_AND_ORGANIZATION_ASSIGNMENT ( #40, #20, ( #109 ) ) ;
#43 = DIRECTION ( 'NONE',  ( -1.000000000000000000, -0.000000000000000000, -0.000000000000000000 ) ) ;
#44 = ORIENTED_EDGE ( 'NONE', *, *, #57, .T. ) ;
#45 = FACE_OUTER_BOUND ( 'NONE', #30, .T. ) ;
#46 = LINE ( 'NONE', #161, #87 ) ;
#47 = CIRCLE ( 'NONE', #114, 12.69999999999999929 ) ;
#48 = CARTESIAN_POINT ( 'NONE',  ( 0.000000000000000000, 0.000000000000000000, 0.000000000000000000 ) ) ;
#49 = COORDINATED_UNIVERSAL_TIME_OFFSET ( 8, 0, .AHEAD. ) ;
#50 = PERSON_AND_ORGANIZATION ( #86, #81 ) ;
#51 = COORDINATED_UNIVERSAL_TIME_OFFSET ( 8, 0, .AHEAD. ) ;
#52 = AXIS2_PLACEMENT_3D ( 'NONE', #141, #117, #74 ) ;
#53 = PERSON_AND_ORGANIZATION_ROLE ( 'creator' ) ;
#54 = APPLICATION_PROTOCOL_DEFINITION ( 'international standard', 'config_control_design', 1994, #145 ) ;
#55 = PRODUCT_DEFINITION ( 'UNKNOWN', '', #109, #72 ) ;
#56 = VECTOR ( 'NONE', #116, 1000.000000000000000 ) ;
#57 = EDGE_CURVE ( 'NONE', #14, #33, #103, .T. ) ;
#58 = LOCAL_TIME ( 10, 18, 57.00000000000000000, #135 ) ;
#59 = DIRECTION ( 'NONE',  ( -1.000000000000000000, -0.000000000000000000, -0.000000000000000000 ) ) ;
#60 = VERTEX_POINT ( 'NONE', #165 ) ;
#61 = CARTESIAN_POINT ( 'NONE',  ( -1.187907395172932594E-15, 1.555301434917138433E-15, -12.69999999999999929 ) ) ;
#62 = PRODUCT_RELATED_PRODUCT_CATEGORY ( 'detail', '', ( #71 ) ) ;
#63 = DIRECTION ( 'NONE',  ( -1.000000000000000000, -0.000000000000000000, -0.000000000000000000 ) ) ;
#64 = SECURITY_CLASSIFICATION_LEVEL ( 'unclassified' ) ;
#65 = PERSON_AND_ORGANIZATION ( #86, #81 ) ;
#66 = DATE_TIME_ROLE ( 'creation_date' ) ;
#67 = DATE_AND_TIME ( #168, #68 ) ;
#68 = LOCAL_TIME ( 10, 18, 57.00000000000000000, #49 ) ;
#69 = EDGE_CURVE ( 'NONE', #60, #142, #46, .T. ) ;
#70 =( GEOMETRIC_REPRESENTATION_CONTEXT ( 3 ) GLOBAL_UNCERTAINTY_ASSIGNED_CONTEXT ( ( #172 ) ) GLOBAL_UNIT_ASSIGNED_CONTEXT ( ( #136, #155, #39 ) ) REPRESENTATION_CONTEXT ( 'NONE', 'WORKASPACE' ) );
#71 = PRODUCT ( 'BK7-LPDBSP-25.4-605', 'BK7-LPDBSP-25.4-605', '', ( #21 ) ) ;
#72 = DESIGN_CONTEXT ( 'detailed design', #9, 'design' ) ;
#73 = FACE_OUTER_BOUND ( 'NONE', #90, .T. ) ;
#74 = DIRECTION ( 'NONE',  ( 0.000000000000000000, 0.000000000000000000, 1.000000000000000000 ) ) ;
#75 = LOCAL_TIME ( 10, 18, 57.00000000000000000, #134 ) ;
#76 = APPROVAL ( #167, 'UNSPECIFIED' ) ;
#77 = ORIENTED_EDGE ( 'NONE', *, *, #69, .F. ) ;
#78 = DIRECTION ( 'NONE',  ( 1.000000000000000000, 0.000000000000000000, 0.000000000000000000 ) ) ;
#79 = DIRECTION ( 'NONE',  ( 0.000000000000000000, 0.000000000000000000, 1.000000000000000000 ) ) ;
#80 = EDGE_CURVE ( 'NONE', #33, #142, #47, .T. ) ;
#81 = ORGANIZATION ( 'UNSPECIFIED', 'UNSPECIFIED', '' ) ;
#82 = PERSON_AND_ORGANIZATION_ROLE ( 'classification_officer' ) ;
#83 = PERSON_AND_ORGANIZATION ( #86, #81 ) ;
#84 = CARTESIAN_POINT ( 'NONE',  ( 3.499999999999999112, 12.69999999999999929, 0.000000000000000000 ) ) ;
#85 = APPROVAL ( #1, 'UNSPECIFIED' ) ;
#86 = PERSON ( 'UNSPECIFIED', 'UNSPECIFIED', 'UNSPECIFIED', ('UNSPECIFIED'), ('UNSPECIFIED'), ('UNSPECIFIED') ) ;
#87 = VECTOR ( 'NONE', #43, 1000.000000000000000 ) ;
#88 = CARTESIAN_POINT ( 'NONE',  ( 3.499999999999998224, 1.555301434917138433E-15, -12.69999999999999929 ) ) ;
#89 = ORIENTED_EDGE ( 'NONE', *, *, #26, .F. ) ;
#90 = EDGE_LOOP ( 'NONE', ( #119, #18 ) ) ;
#91 = PERSON_AND_ORGANIZATION ( #86, #81 ) ;
#92 = DIRECTION ( 'NONE',  ( -1.000000000000000000, 0.000000000000000000, -0.000000000000000000 ) ) ;
#93 = DATE_TIME_ROLE ( 'classification_date' ) ;
#94 = PERSON_AND_ORGANIZATION ( #86, #81 ) ;
#95 = CC_DESIGN_DATE_AND_TIME_ASSIGNMENT ( #132, #93, ( #7 ) ) ;
#96 = CIRCLE ( 'NONE', #131, 12.69999999999999929 ) ;
#97 = CC_DESIGN_PERSON_AND_ORGANIZATION_ASSIGNMENT ( #91, #23, ( #109 ) ) ;
#98 = APPROVAL_PERSON_ORGANIZATION ( #94, #76, #3 ) ;
#99 = FACE_OUTER_BOUND ( 'NONE', #127, .T. ) ;
#100 = LOCAL_TIME ( 10, 18, 57.00000000000000000, #38 ) ;
#101 = CYLINDRICAL_SURFACE ( 'NONE', #113, 12.69999999999999929 ) ;
#102 = ADVANCED_FACE ( 'NONE', ( #99 ), #153, .T. ) ;
#103 = LINE ( 'NONE', #120, #56 ) ;
#104 = CARTESIAN_POINT ( 'NONE',  ( -1.187907395172932594E-15, 0.000000000000000000, 0.000000000000000000 ) ) ;
#105 = ADVANCED_BREP_SHAPE_REPRESENTATION ( 'BK7-LPDBSP-25.4-605', ( #10, #22 ), #70 ) ;
#106 = CARTESIAN_POINT ( 'NONE',  ( -1.187907395172932594E-15, 0.000000000000000000, 0.000000000000000000 ) ) ;
#107 = APPROVAL_DATE_TIME ( #67, #85 ) ;
#108 = DATE_AND_TIME ( #124, #58 ) ;
#109 = PRODUCT_DEFINITION_FORMATION_WITH_SPECIFIED_SOURCE ( 'ANY', '', #71, .NOT_KNOWN. ) ;
#110 = APPLICATION_PROTOCOL_DEFINITION ( 'international standard', 'config_control_design', 1994, #9 ) ;
#111 = APPROVAL_ROLE ( '' ) ;
#112 = PERSON_AND_ORGANIZATION ( #86, #81 ) ;
#113 = AXIS2_PLACEMENT_3D ( 'NONE', #31, #63, #154 ) ;
#114 = AXIS2_PLACEMENT_3D ( 'NONE', #104, #170, #171 ) ;
#115 = ADVANCED_FACE ( 'NONE', ( #73 ), #17, .F. ) ;
#116 = DIRECTION ( 'NONE',  ( -1.000000000000000000, -0.000000000000000000, -0.000000000000000000 ) ) ;
#117 = DIRECTION ( 'NONE',  ( -1.000000000000000000, -0.000000000000000000, -0.000000000000000000 ) ) ;
#118 = AXIS2_PLACEMENT_3D ( 'NONE', #84, #92, #125 ) ;
#119 = ORIENTED_EDGE ( 'NONE', *, *, #26, .T. ) ;
#120 = CARTESIAN_POINT ( 'NONE',  ( 0.000000000000000000, 1.555301434917138433E-15, -12.69999999999999929 ) ) ;
#121 = CARTESIAN_POINT ( 'NONE',  ( -1.187907395172932594E-15, 0.000000000000000000, 12.69999999999999929 ) ) ;
#122 = LOCAL_TIME ( 10, 18, 57.00000000000000000, #51 ) ;
#123 = APPROVAL_ROLE ( '' ) ;
#124 = CALENDAR_DATE ( 2020, 22, 12 ) ;
#125 = DIRECTION ( 'NONE',  ( -0.000000000000000000, 0.000000000000000000, 1.000000000000000000 ) ) ;
#126 = EDGE_CURVE ( 'NONE', #60, #14, #162, .T. ) ;
#127 = EDGE_LOOP ( 'NONE', ( #151, #44, #89, #77 ) ) ;
#128 = ORIENTED_EDGE ( 'NONE', *, *, #57, .F. ) ;
#129 = DIRECTION ( 'NONE',  ( 0.000000000000000000, 0.000000000000000000, -1.000000000000000000 ) ) ;
#130 = ORIENTED_EDGE ( 'NONE', *, *, #139, .F. ) ;
#131 = AXIS2_PLACEMENT_3D ( 'NONE', #106, #34, #79 ) ;
#132 = DATE_AND_TIME ( #25, #122 ) ;
#133 = CC_DESIGN_PERSON_AND_ORGANIZATION_ASSIGNMENT ( #65, #158, ( #71 ) ) ;
#134 = COORDINATED_UNIVERSAL_TIME_OFFSET ( 8, 0, .AHEAD. ) ;
#135 = COORDINATED_UNIVERSAL_TIME_OFFSET ( 8, 0, .AHEAD. ) ;
#136 =( LENGTH_UNIT ( ) NAMED_UNIT ( * ) SI_UNIT ( .MILLI., .METRE. ) );
#137 = AXIS2_PLACEMENT_3D ( 'NONE', #150, #78, #129 ) ;
#138 = AXIS2_PLACEMENT_3D ( 'NONE', #163, #164, #174 ) ;
#139 = EDGE_CURVE ( 'NONE', #14, #60, #28, .T. ) ;
#140 = ORIENTED_EDGE ( 'NONE', *, *, #139, .T. ) ;
#141 = CARTESIAN_POINT ( 'NONE',  ( 3.499999999999998224, 0.000000000000000000, 0.000000000000000000 ) ) ;
#142 = VERTEX_POINT ( 'NONE', #121 ) ;
#143 = CC_DESIGN_APPROVAL ( #19, ( #55 ) ) ;
#144 = ORIENTED_EDGE ( 'NONE', *, *, #80, .F. ) ;
#145 = APPLICATION_CONTEXT ( 'configuration controlled 3d designs of mechanical parts and assemblies' ) ;
#146 = PERSON_AND_ORGANIZATION ( #86, #81 ) ;
#147 = DIRECTION ( 'NONE',  ( 0.000000000000000000, 0.000000000000000000, 1.000000000000000000 ) ) ;
#148 = CALENDAR_DATE ( 2020, 22, 12 ) ;
#149 = APPROVAL_STATUS ( 'not_yet_approved' ) ;
#150 = CARTESIAN_POINT ( 'NONE',  ( -5.939536975864662969E-16, 12.69999999999999929, 0.000000000000000000 ) ) ;
#151 = ORIENTED_EDGE ( 'NONE', *, *, #126, .T. ) ;
#152 = CC_DESIGN_PERSON_AND_ORGANIZATION_ASSIGNMENT ( #146, #82, ( #7 ) ) ;
#153 = CYLINDRICAL_SURFACE ( 'NONE', #8, 12.69999999999999929 ) ;
#154 = DIRECTION ( 'NONE',  ( 0.000000000000000000, 0.000000000000000000, 1.000000000000000000 ) ) ;
#155 =( NAMED_UNIT ( * ) PLANE_ANGLE_UNIT ( ) SI_UNIT ( $, .RADIAN. ) );
#156 = CALENDAR_DATE ( 2020, 22, 12 ) ;
#157 = SHAPE_DEFINITION_REPRESENTATION ( #29, #105 ) ;
#158 = PERSON_AND_ORGANIZATION_ROLE ( 'design_owner' ) ;
#159 = ADVANCED_FACE ( 'NONE', ( #45 ), #27, .F. ) ;
#160 = CC_DESIGN_SECURITY_CLASSIFICATION ( #7, ( #109 ) ) ;
#161 = CARTESIAN_POINT ( 'NONE',  ( 0.000000000000000000, 0.000000000000000000, 12.69999999999999929 ) ) ;
#162 = CIRCLE ( 'NONE', #52, 12.69999999999999929 ) ;
#163 = CARTESIAN_POINT ( 'NONE',  ( 3.499999999999998224, 0.000000000000000000, 0.000000000000000000 ) ) ;
#164 = DIRECTION ( 'NONE',  ( -1.000000000000000000, -0.000000000000000000, -0.000000000000000000 ) ) ;
#165 = CARTESIAN_POINT ( 'NONE',  ( 3.499999999999998224, 0.000000000000000000, 12.69999999999999929 ) ) ;
#166 = APPROVAL_PERSON_ORGANIZATION ( #112, #19, #123 ) ;
#167 = APPROVAL_STATUS ( 'not_yet_approved' ) ;
#168 = CALENDAR_DATE ( 2020, 22, 12 ) ;
#169 = DIRECTION ( 'NONE',  ( 1.000000000000000000, 0.000000000000000000, 0.000000000000000000 ) ) ;
#170 = DIRECTION ( 'NONE',  ( -1.000000000000000000, -0.000000000000000000, -0.000000000000000000 ) ) ;
#171 = DIRECTION ( 'NONE',  ( 0.000000000000000000, 0.000000000000000000, 1.000000000000000000 ) ) ;
#172 = UNCERTAINTY_MEASURE_WITH_UNIT (LENGTH_MEASURE( 1.000000000000000082E-05 ), #136, 'distance_accuracy_value', 'NONE');
#173 = FACE_OUTER_BOUND ( 'NONE', #175, .T. ) ;
#174 = DIRECTION ( 'NONE',  ( 0.000000000000000000, 0.000000000000000000, 1.000000000000000000 ) ) ;
#175 = EDGE_LOOP ( 'NONE', ( #128, #140, #32, #144 ) ) ;
ENDSEC;
END-ISO-10303-21;
